Bruce Bernhart Mandolin Websites


Bruce Bernhart Mandolin Topics

Mandolin Family Tree, Chords, and Tabs

In Minnesota, Bruce Bernhart has been a mandolin enthusiast since the mid-1980's
Bernhart Mandolin Websites
The Bernhart Mandolin Webpages explore the history of the mandolin, buying and building mandolins, basic chord structures, the different styles of playing and the various makes and models of mandolins  available on the market

Look for additional Bruce Bernhart mandolin articles 
Shuckin the Corn (Dennis Ladd- mandolincafe)

  __            G__     __     __             __     __      __
  |  |           |  |   |  |   |  |           |  |   |  |    |  |
A----------||-----------3--3---------------|---------3--3----------------
 ----------||o---0--2---2--2---2--0--------|--0--2---2--2----------------
 -0--2--5--||o----ho------------------5----|---ho------------0--2---5----
 ----------||------------------------------|-----------------------------
  |_____|        |______|      |______|       |______|       |______|

      ___     ___      ___              G7        ___
     |   |   |   |    |   |                      |   |
 ------------3---3-------------------|-----------------------------------
 ----0---2---2---2----2---0----------|-----------2---2----2--------------
 -----ho----------------------5------|---3-------3---3----3-------5------
 ------------------------------------|-----------------------------------
     |_______|        |_______|          |_______|        |_______|

 C(7)___              ___                 ___     ___      ___
    |   |            |   |               |   |   |   |    |   |
 -----------------------------------|------------------------------------
 -----------1-----------------------|----1-----------1-------------------
 ---0---2----------------5---2------|--------5---2------------5---2------
 ----ho-----------------------------|------------------------------------
    |_______|        |_______|           |_______|        |_______|

                       ___               G___              ___
                      |   |              |   |            |   |
 ------------------------------------|-------3---3-----------------------
 ----1-------3--------1--------------|-------2---2-----------------------
 -------------------------5---2------|---5----------------3---3---2------
 ------------------------------------|-----------------------------------
     |_______|        |_______|          |_______|        |_______|

     D                                    ___     ___      ___
                                         |   |   |   |    |   |
 ------------2--------2--------------|-------0---------------------------
 ------------5--------5--------------|---5-------5---1----2--------------
 ----0-------------------------------|----------------sl------5---2------
 ------------------------------------|-----------------------------------
     |_______|        |_______|          |_______|        |_______|
                     1_________________________ 2_______________________
  G    _    _        |             _           ||
      | |  | |       |            | |          ||
 -----3-3--3-3-3-----|---3---------------------||---3------------------||
 -----2-2--2-2-2-----|---2--------------------o||---2------------------||
 -5------------------|------------0-2-5-------o||----------------------||
 --------------------|-------------------------||----------------------||
  |___|    |___|         |___|    |___|             |___|    |___|

     G

B------------------------------------|-----------------------------------
 ----5----------------3-------2------|---3-------5-----------------------
 ----3----------------2-------0------|---2-------5-----------------------
 ------------------------------------|-----------------------------------
     |_______|        |_______|          |_______|        |_______|



 ------------------------------------|-----------------------------------
 ----5----------------3-------2------|---3-------5-----------------------
 ----3----------------2-------0------|---2-------5-----------------------
 ------------------------------------|-----------------------------------
     |_______|        |_______|          |_______|        |_______|

  C(7)___     ___      ___                ___     ___      ___
     |   |   |   |    |   |              |   |   |   |    |   |
 ------------------------------------|-----------------------------------
 ----0---1---0---1--------0----------|---0---1---0---1--------0----------
 -----ho------ho--------------2------|----ho------ho--------------5------
 ------------------------------------|-----------------------------------
     |_______|        |_______|          |_______|        |_______|

      ___     ___      ___               G        ___      ___
     |   |   |   |    |   |                      |   |    |   |
 ------------------------------------|-----------------------------------
 ----0---1---0---1--------1---0------|---------------1----2--------------
 -----ho------ho-----------po--------|---5-------------sl-----5---2------
 ------------------------------------|-----------------------------------
     |_______|        |_______|          |_______|        |_______|

     D                                    ___     ___      ___
                                         |   |   |   |    |   |
 ------------2--------2--------------|-------0---------------------------
 ------------5--------5--------------|---5-------5---1----2--------------
 ----0-------------------------------|----------------sl------5---2------
 ------------------------------------|-----------------------------------
     |_______|        |_______|          |_______|        |_______|

    G        ___      ___     ___
            |   |    |   |   |   |
 -----------3---3----3---3---3---3--|--3-------------------------------||
 -----------2---2----2---2---2---2--|--2-------------------------------||
 ---5-------------------------------|----------------------------------||
 -----------------------------------|----------------------------------||

Bruce Bernhart Mandolin Websites

Be sure to visit the other Bruce Bernhart Mandolin Websites:

Bruce Bernhart mandolin rock tabs

Bruce Bernhart mandolin lessons- common scales

Bruce Bernhart on buying and setting up your new mandolin

Bruce Bernhart mandolin lessons- tuning

Bruce Bernhart mandolin lessons- chord patterns

Bruce Bernhart on mandolin history and basic chord structures

Bruce Bernhart on string and saddle adjustment

Bruce Bernhart more tuning tips and whole/half steps

Bruce Bernhart on more chord patterns

Bruce Bernhart on the mandolin family

Bruce Bernhart on mandolin bluegrass chords and patterns


Bruce Bernhart on temperature considerations

Bruce Bernhart lessson on mandolin flats and sharps


Bruce Bernhart lesson on scales, circle of 5ths and meter


Bruce Bernhart on triads, gears

Bruce Bernhart mandolin chord diagrams

Bruce Bernhart on modern emergence of the mandolin

Bruce Bernhart on simple chords

Bruce Bernhart on whole and half-note steps on the mandolin

Bruce Bernhart mandolin practice excercises

Bruce Bernhart on playing waltzes


Bruce Bernhart on majors, minors and sevenths



THANK YOU FOR VISITING THE BRUCE BERNHART MANDOLIN WEBSITES!


Also, check out the Bruce Bernhart RV Websites and Blogs:

Solar power for your RV

The care and feeding of your RV battery

The sport of "geocaching" and RV refrigeration basics

The basics of RV power inversion

RV travel tips and tire care

Advanced discussion on power inversion

Tips on buying a house battery and cold weather maintenance

RV Insurance basics

Buying the right generator for your RV and portable power

RV television reception options

Care and maintenance of the RV air conditioner

Top RV destinations

RV long-term supplies and weight considerations

RV Insurance- Road protection and bodily injury coverage

RV battery types and winter charging considerations

Deep cycle battery basics

Website Builder